Multiple Songs Per Page

Using UkeGeek on a Typical Blog Page

A Penny A Kiss, A Penny A Hug

Words & Music by Buddy Kay & Ralph Care

As performed by The Andrew Sisters (1951)

					

{c:Intro}
{start_of_tab}
A|-0-1--|--3-5-3-0-1-3-1----|--0-1-0---------------------------------------
E|------|----------------3--|--------1-3-----------------------------------
C|------|-------------------|----------------------------------------------
G|------|-------------------|----------------------------------------------
{eot}

{c:First Verse}
I'm [F]gonna save a penny
Ev-'ry time I hold you tight
And we're gonna watch the pen-nies [Gm7][Gm7b5][C7]grow____
I'm [Gm]gon-na save a pen-ny
Ev-ry time we kiss good-night
And [C7]dar-ling, when we're [C7]mar-ried we can [F]own a [C7]bun-ga-[F]low:___

{soc}
{c:Chorus}
A [F]pen-ny a kiss__
A pen-ny a hug___
We're gon-na save our pen-nies in a [Gm7]big brown jug___[C7]
A [Gm7]pen-ny a kiss[C7]___
A [Gm7]pen-ny a hug[C7]__
[C7]Oh! how rich we're gon-na [F]be.____[Fdim] [Gm7] [C7]
{eoc}
{c:Chorus Tablature}
{start_of_tab}
A|---------0---|---------0-
E|---1-1-1-----|---1-1-1---
C|-0-----------|-0---------
G|-------------|-----------
{eot}
A pen-ny a kiss | A pen-ny a hug
{start_of_tab}
A|-----------0-0-3-3-1------------------------
E|---1-1-1-1-----------3-0---------------------
C|-0-------------------------------------------
G|---------------------------------------------
{eot}
We're gon-na save our pen-nies in a big brown jug
{start_of_tab}
A|---------1--|---------1------
E|---3-3-3----|---3-3-3--------
C|-0----------|-0-------------
G|------------|----------------
{eot}
A pen-ny a kiss | A pen-ny a hug
{start_of_tab}
A|-3-5-3--1-0------------------
E|------------3-1-------------
C|--------------------------
G|---------------------------
{eot}
Oh, how rich we're gon-na be!
{c:Verse Tablature}
{start_of_tab}
A|---3-2-3-5-3-0-|-----0---0-1-0-
E|---------------|-1-3---4-------
C|-0-------------|---------------
G|---------------|---------------
{eot}
I'm gon-na save a pen-ny | Ev'ry time I hold you tight
{start_of_tab}
A|-3-2-3-5-3-0--0-----------------------
E|-------------1--3----------------------
C|---------------------------------------
G|---------------------------------------
{eot}
And we're gon-na watch the pen-nies grow
{start_of_tab}
A|---5-4-5-7-5-1-|---0-1-0-1-3--1-
E|-3-------------|-3--------------
C|---------------|----------------
G|---------------|----------------
{eot}
I'm gon-na save a pen-ny | Ev'ry time we kiss good-night
{start_of_tab}
A|--1-7-3-5-1-3-0-|-1---0-----------------
E|----------------|---3---1-3-0-1---------
C|----------------|-----------------------
G|----------------|-----------------------
{eot}
And dar-ling, when we're married | we can own a bun-ga-low!
{c:Second Verse}
I'm gon-na save a pen-ny
Eve-'ry time we take a walk
Add an-oth-er on a rain-y day____
I'm gon-na save a pen-ny
Ev-'ry time we ba-by talk
And dar-ling, when we're mar-ried we can fur-nish right a-way:__

{c:Third Verse}
I'm gon-na save a pen-ney
Ev-'ry time I think of you
Right from the morn-ing til I say my pray'rs___
I'm gon-na save a pen-ny
For the dream-in' that we do
And dar-ling, by the time we're mar-ried we'll be mil-lion-aires:__

{c:Fourth Verse}
I'm gonna save a penny
When we're cuddled in a clinch
Closer than a quarter after three
With all the savin' that we do
It's practic'lly a cinch
That ev-ryone in town'll think we
Own a money tree: 

{c:Fifth Verse}
I'm gonna save a penny
Ev'rytime we have a date 
And you're late because you missed the buss
A penny here, a penny there
Till they accumulate
Why, even Rockefeller will be 
Borrowing from us:

{c:on last verse finish with:}
[C7]Oh! how rich we're gon-na,
Oh! how rich we're gon-na
Oh! how rich we're gon-na [F]be.____[C7][F]

Spiderman

Bob Harris

Source: http://www.alligatorboogaloo.com/uke/tabs/030730-1.html

Watch: http://www.youtube.com/watch?v=Epd2XUDuHnE

					
{c:Verse 1:}
[Em]Spiderman, Spiderman 
Does whatever a spider can 
[Am]Spins a web, any size 
[Em]Catches thieves just like flies 
Look [B7]Out! Here comes the Spider[Em]man
{c:Verse 2:}
[Em]Is he strong? Listen bud 
He's got radioactive blood 
[Am]Can he swing from a thread? 
[Em]Take a look overhead 
Hey, [B7]there! There goes the Spider[Em]man

{soc}
{c:Bridge:}
In the [D7]chill of [G]night 
At the [B7]scene of a [Em]crime 
Like a [D7]streak of [G]light 
He ar[C6]rives just in [B7]time
{eoc}

{c:Verse 3:}
[Em]Spiderman, Spiderman 
Friendly neighborhood Spiderman 
[Am]Wealth and fame he's ignored 
[Em]Action is his reward.
{c:Ending:}
To [B7]him, life is a great big [Em]bang up 
[B7]Whenever there's a [Em]hang up 
[B7]You'll find the Spider [Em]man!

The Ballad of Gilligan's Island

George Wyle and Sherwood Shwartz

Source: http://www.alligatorboogaloo.com/uke/tabs/060530-2.html

Watch: http://www.youtube.com/watch?v=-s-yIXydyGw (transposed key)

					
{c:Opening}
Just [Dm]sit right back and you'll [C]hear a tale 
A [Dm] tale of a fateful [C]trip 
That [Dm] started from this [C] tropic port, 
A[Bb]board this [C] tiny [Dm] ship

{c:Second Verse}
The [Dm] mate was a mighty [C] sailin' man, 
The [Dm] skipper brave and [C] sure, 
Five [Dm]passengers set [C]sail that day 
For a [Bb]three-[C]hour [Dm]tour 
A [Bb]three-[C]hour [Dm]tour

{c:Third Verse}
The [Em] weather started [D]getting rough, 
The [Em] tiny ship was [D]tossed 
If [Em] not for the courage of the [D]fearless crew, 
The [C] Minnow [D] would be [Em]lost, 
The [C] Minnow [D] would be [Em]lost

{c:Ending}
The [Fm]ship's aground of the [Eb]shore 
Of this un [Fm]charted desert [Eb]isle 
With [Fm]Gilligan... 
The [Eb]Skipper, too... 
The [Fm]Millionaire... 
And his [Eb]wife... 
The [Fm]movie [Eb]star... 
The [Fm]professor [Eb]and [Fm]Mary-[Eb]Ann 
[Fm]Here on [Eb]Gilligan's [Fm]Isle!